  0
SECTION
  2
HEADER
  9
$ACADVER
  1
AC1015
  9
$ACADMAINTVER
 70
     6
  9
$DWGCODEPAGE
  3
ANSI_1254
  9
$INSBASE
 10
0.0
 20
0.0
 30
0.0
  9
$EXTMIN
 10
0.0
 20
0.0
 30
0.0
  9
$EXTMAX
 10
279.4
 20
215.9
 30
0.0
  9
$LIMMIN
 10
0.0
 20
0.0
  9
$LIMMAX
 10
279.4
 20
215.9
  9
$ORTHOMODE
 70
     0
  9
$REGENMODE
 70
     1
  9
$FILLMODE
 70
     1
  9
$QTEXTMODE
 70
     0
  9
$MIRRTEXT
 70
     1
  9
$LTSCALE
 40
1.0
  9
$ATTMODE
 70
     1
  9
$TEXTSIZE
 40
3.5
  9
$TRACEWID
 40
1.0
  9
$TEXTSTYLE
  7
Standard
  9
$CLAYER
  8
0
  9
$CELTYPE
  6
ByLayer
  9
$CECOLOR
 62
   256
  9
$CELTSCALE
 40
1.0
  9
$DISPSILH
 70
     0
  9
$DIMSCALE
 40
1.0
  9
$DIMASZ
 40
3.5
  9
$DIMEXO
 40
1.0
  9
$DIMDLI
 40
3.75
  9
$DIMRND
 40
0.0
  9
$DIMDLE
 40
0.0
  9
$DIMEXE
 40
1.0
  9
$DIMTP
 40
0.0
  9
$DIMTM
 40
0.0
  9
$DIMTXT
 40
3.5
  9
$DIMCEN
 40
2.5
  9
$DIMTSZ
 40
0.0
  9
$DIMTOL
 70
     0
  9
$DIMLIM
 70
     0
  9
$DIMTIH
 70
     1
  9
$DIMTOH
 70
     1
  9
$DIMSE1
 70
     0
  9
$DIMSE2
 70
     0
  9
$DIMTAD
 70
     1
  9
$DIMZIN
 70
     0
  9
$DIMBLK
  1

  9
$DIMASO
 70
     1
  9
$DIMSHO
 70
     1
  9
$DIMPOST
  1

  9
$DIMAPOST
  1

  9
$DIMALT
 70
     0
  9
$DIMALTD
 70
     3
  9
$DIMALTF
 40
0.0393700787
  9
$DIMLFAC
 40
1.0
  9
$DIMTOFL
 70
     1
  9
$DIMTVP
 40
0.0
  9
$DIMTIX
 70
     0
  9
$DIMSOXD
 70
     0
  9
$DIMSAH
 70
     0
  9
$DIMBLK1
  1

  9
$DIMBLK2
  1

  9
$DIMSTYLE
  2
ISO-25
  9
$DIMCLRD
 70
     0
  9
$DIMCLRE
 70
     0
  9
$DIMCLRT
 70
     0
  9
$DIMTFAC
 40
1.0
  9
$DIMGAP
 40
1.524
  9
$DIMJUST
 70
     0
  9
$DIMSD1
 70
     0
  9
$DIMSD2
 70
     0
  9
$DIMTOLJ
 70
     0
  9
$DIMTZIN
 70
     0
  9
$DIMALTZ
 70
     0
  9
$DIMALTTZ
 70
     0
  9
$DIMUPT
 70
     0
  9
$DIMDEC
 70
     2
  9
$DIMTDEC
 70
     2
  9
$DIMALTU
 70
     2
  9
$DIMALTTD
 70
     3
  9
$DIMTXSTY
  7
Standard
  9
$DIMAUNIT
 70
     0
  9
$DIMADEC
 70
     2
  9
$DIMALTRND
 40
0.0
  9
$DIMAZIN
 70
     0
  9
$DIMDSEP
 70
    44
  9
$DIMATFIT
 70
     3
  9
$DIMFRAC
 70
     0
  9
$DIMLDRBLK
  1

  9
$DIMLUNIT
 70
     2
  9
$DIMLWD
 70
    -2
  9
$DIMLWE
 70
    -2
  9
$DIMTMOVE
 70
     0
  9
$LUNITS
 70
     2
  9
$LUPREC
 70
     2
  9
$SKETCHINC
 40
1.0
  9
$FILLETRAD
 40
10.0
  9
$AUNITS
 70
     0
  9
$AUPREC
 70
     2
  9
$MENU
  1
.
  9
$ELEVATION
 40
0.0
  9
$PELEVATION
 40
0.0
  9
$THICKNESS
 40
0.0
  9
$LIMCHECK
 70
     0
  9
$CHAMFERA
 40
0.0
  9
$CHAMFERB
 40
0.0
  9
$CHAMFERC
 40
0.0
  9
$CHAMFERD
 40
0.0
  9
$SKPOLY
 70
     0
  9
$TDCREATE
 40
2458985.683228958
  9
$TDUCREATE
 40
2458985.558228958
  9
$TDUPDATE
 40
2458985.683229329
  9
$TDUUPDATE
 40
2458985.558229329
  9
$TDINDWG
 40
0.0000000116
  9
$TDUSRTIMER
 40
0.0000000116
  9
$USRTIMER
 70
     1
  9
$ANGBASE
 50
0.0
  9
$ANGDIR
 70
     0
  9
$PDMODE
 70
     0
  9
$PDSIZE
 40
-1.0
  9
$PLINEWID
 40
0.0
  9
$SPLFRAME
 70
     0
  9
$SPLINETYPE
 70
     6
  9
$SPLINESEGS
 70
     8
  9
$HANDSEED
  5
CB
  9
$SURFTAB1
 70
     6
  9
$SURFTAB2
 70
     6
  9
$SURFTYPE
 70
     6
  9
$SURFU
 70
     6
  9
$SURFV
 70
     6
  9
$UCSBASE
  2

  9
$UCSNAME
  2

  9
$UCSORG
 10
0.0
 20
0.0
 30
0.0
  9
$UCSXDIR
 10
1.0
 20
0.0
 30
0.0
  9
$UCSYDIR
 10
0.0
 20
1.0
 30
0.0
  9
$UCSORTHOREF
  2

  9
$UCSORTHOVIEW
 70
     0
  9
$UCSORGTOP
 10
0.0
 20
0.0
 30
0.0
  9
$UCSORGBOTTOM
 10
0.0
 20
0.0
 30
0.0
  9
$UCSORGLEFT
 10
0.0
 20
0.0
 30
0.0
  9
$UCSORGRIGHT
 10
0.0
 20
0.0
 30
0.0
  9
$UCSORGFRONT
 10
0.0
 20
0.0
 30
0.0
  9
$UCSORGBACK
 10
0.0
 20
0.0
 30
0.0
  9
$PUCSBASE
  2

  9
$PUCSNAME
  2

  9
$PUCSORG
 10
0.0
 20
0.0
 30
0.0
  9
$PUCSXDIR
 10
1.0
 20
0.0
 30
0.0
  9
$PUCSYDIR
 10
0.0
 20
1.0
 30
0.0
  9
$PUCSORTHOREF
  2

  9
$PUCSORTHOVIEW
 70
     0
  9
$PUCSORGTOP
 10
0.0
 20
0.0
 30
0.0
  9
$PUCSORGBOTTOM
 10
0.0
 20
0.0
 30
0.0
  9
$PUCSORGLEFT
 10
0.0
 20
0.0
 30
0.0
  9
$PUCSORGRIGHT
 10
0.0
 20
0.0
 30
0.0
  9
$PUCSORGFRONT
 10
0.0
 20
0.0
 30
0.0
  9
$PUCSORGBACK
 10
0.0
 20
0.0
 30
0.0
  9
$USERI1
 70
     0
  9
$USERI2
 70
     0
  9
$USERI3
 70
     0
  9
$USERI4
 70
     0
  9
$USERI5
 70
     0
  9
$USERR1
 40
0.0
  9
$USERR2
 40
0.0
  9
$USERR3
 40
0.0
  9
$USERR4
 40
0.0
  9
$USERR5
 40
0.0
  9
$WORLDVIEW
 70
     1
  9
$SHADEDGE
 70
     3
  9
$SHADEDIF
 70
    70
  9
$TILEMODE
 70
     1
  9
$MAXACTVP
 70
    64
  9
$PINSBASE
 10
0.0
 20
0.0
 30
0.0
  9
$PLIMCHECK
 70
     0
  9
$PEXTMIN
 10
1.0000000000E+20
 20
1.0000000000E+20
 30
1.0000000000E+20
  9
$PEXTMAX
 10
-1.0000000000E+20
 20
-1.0000000000E+20
 30
-1.0000000000E+20
  9
$PLIMMIN
 10
0.0
 20
0.0
  9
$PLIMMAX
 10
420.0
 20
297.0
  9
$UNITMODE
 70
     0
  9
$VISRETAIN
 70
     1
  9
$PLINEGEN
 70
     0
  9
$PSLTSCALE
 70
     1
  9
$TREEDEPTH
 70
  3020
  9
$CMLSTYLE
  2
Standard
  9
$CMLJUST
 70
     0
  9
$CMLSCALE
 40
20.0
  9
$PROXYGRAPHICS
 70
     1
  9
$MEASUREMENT
 70
     1
  9
$CELWEIGHT
370
    -1
  9
$ENDCAPS
280
     0
  9
$JOINSTYLE
280
     0
  9
$LWDISPLAY
290
     1
  9
$INSUNITS
 70
     4
  9
$HYPERLINKBASE
  1

  9
$STYLESHEET
  1

  9
$XEDIT
290
     1
  9
$CEPSNTYPE
380
     0
  9
$PSTYLEMODE
290
     1
  9
$FINGERPRINTGUID
  2
{b209cca6-f0f2-4726-ba5c-b0b5db697e84}
  9
$VERSIONGUID
  2
{FAEB1C32-E019-11D5-929B-00C0DF256EC4}
  9
$EXTNAMES
290
     1
  9
$PSVPSCALE
 40
0.0
  9
$OLESTARTUP
290
     0
  0
ENDSEC
  0
SECTION
  2
CLASSES
  0
CLASS
  1
ACDBDICTIONARYWDFLT
  2
AcDbDictionaryWithDefault
  3
ObjectDBX Classes
 90
        0
280
     0
281
     0
  0
CLASS
  1
VISUALSTYLE
  2
AcDbVisualStyle
  3
ObjectDBX Classes
 90
     4095
280
     0
281
     0
  0
CLASS
  1
MATERIAL
  2
AcDbMaterial
  3
ObjectDBX Classes
 90
     1153
280
     0
281
     0
  0
CLASS
  1
SCALE
  2
AcDbScale
  3
ObjectDBX Classes
 90
     1153
280
     0
281
     0
  0
CLASS
  1
TABLESTYLE
  2
AcDbTableStyle
  3
ObjectDBX Classes
 90
     4095
280
     0
281
     0
  0
CLASS
  1
MLEADERSTYLE
  2
AcDbMLeaderStyle
  3
ACDB_MLEADERSTYLE_CLASS
 90
     4095
280
     0
281
     0
  0
CLASS
  1
SUN
  2
AcDbSun
  3
SCENEOE
 90
     1153
280
     0
281
     0
  0
CLASS
  1
ACDBPLACEHOLDER
  2
AcDbPlaceHolder
  3
ObjectDBX Classes
 90
        0
280
     0
281
     0
  0
CLASS
  1
LAYOUT
  2
AcDbLayout
  3
ObjectDBX Classes
 90
        0
280
     0
281
     0
  0
ENDSEC
  0
SECTION
  2
TABLES
  0
TABLE
  2
VPORT
  5
8
330
0
100
AcDbSymbolTable
 70
     1
  0
VPORT
  5
29
330
8
100
AcDbSymbolTableRecord
100
AcDbViewportTableRecord
  2
*Active
 70
     0
 10
0.0
 20
0.0
 11
1.0
 21
1.0
 12
139.7
 22
107.95
 13
0.0
 23
0.0
 14
10.0
 24
10.0
 15
10.0
 25
10.0
 16
0.0
 26
0.0
 36
1.0
 17
0.0
 27
0.0
 37
0.0
 40
215.9
 41
1.2941176471
 42
50.0
 43
0.0
 44
0.0
 50
0.0
 51
0.0
 71
     0
 72
  2000
 73
     1
 74
     3
 75
     0
 76
     0
 77
     0
 78
     0
281
     0
 65
     1
110
0.0
120
0.0
130
0.0
111
1.0
121
0.0
131
0.0
112
0.0
122
1.0
132
0.0
 79
     0
146
0.0
  0
ENDTAB
  0
TABLE
  2
LTYPE
  5
5
330
0
100
AcDbSymbolTable
 70
     6
  0
LTYPE
  5
14
330
5
100
AcDbSymbolTableRecord
100
AcDbLinetypeTableRecord
  2
ByBlock
 70
     0
  3

 72
    65
 73
     0
 40
0.0
  0
LTYPE
  5
15
330
5
100
AcDbSymbolTableRecord
100
AcDbLinetypeTableRecord
  2
ByLayer
 70
     0
  3

 72
    65
 73
     0
 40
0.0
  0
LTYPE
  5
16
330
5
100
AcDbSymbolTableRecord
100
AcDbLinetypeTableRecord
  2
Continuous
 70
     0
  3
Solid line
 72
    65
 73
     0
 40
0.0
  0
LTYPE
  5
6E
330
5
100
AcDbSymbolTableRecord
100
AcDbLinetypeTableRecord
  2
HIDDEN
 70
     0
  3
Hidden __ __ __ __ __ __ __ __ __ __ __ __ __ __
 72
    65
 73
     2
 40
1.905
 49
1.27
 74
     0
 49
-0.635
 74
     0
  0
LTYPE
  5
6F
330
5
100
AcDbSymbolTableRecord
100
AcDbLinetypeTableRecord
  2
PHANTOM
 70
     0
  3
Phantom ______  __  __  ______  __  __  ______
 72
    65
 73
     6
 40
12.7
 49
6.35
 74
     0
 49
-1.27
 74
     0
 49
1.27
 74
     0
 49
-1.27
 74
     0
 49
1.27
 74
     0
 49
-1.27
 74
     0
  0
LTYPE
  5
70
330
5
100
AcDbSymbolTableRecord
100
AcDbLinetypeTableRecord
  2
CENTER
 70
     0
  3
Center ____ _ ____ _ ____ _ ____ _ ____ _ ____
 72
    65
 73
     4
 40
10.16
 49
6.35
 74
     0
 49
-1.27
 74
     0
 49
1.27
 74
     0
 49
-1.27
 74
     0
  0
LTYPE
  5
71
330
5
100
AcDbSymbolTableRecord
100
AcDbLinetypeTableRecord
  2
CENTERX2
 70
     0
  3
Center (2x) ________  __  ________  __  _____
 72
    65
 73
     4
 40
20.32
 49
12.7
 74
     0
 49
-2.54
 74
     0
 49
2.54
 74
     0
 49
-2.54
 74
     0
  0
LTYPE
  5
72
330
5
100
AcDbSymbolTableRecord
100
AcDbLinetypeTableRecord
  2
DOT2
 70
     0
  3
Dot (.5x) ........................................
 72
    65
 73
     2
 40
0.635
 49
0.0
 74
     0
 49
-0.635
 74
     0
  0
ENDTAB
  0
TABLE
  2
LAYER
  5
2
330
0
100
AcDbSymbolTable
 70
    17
  0
LAYER
  5
10
330
2
100
AcDbSymbolTableRecord
100
AcDbLayerTableRecord
  2
0
 70
     0
 62
     7
  6
Continuous
370
    -3
390
F
  0
LAYER
  5
73
330
2
100
AcDbSymbolTableRecord
100
AcDbLayerTableRecord
  2
FORMAT
 70
     0
 62
     7
  6
Continuous
370
    -3
390
F
  0
LAYER
  5
74
330
2
100
AcDbSymbolTableRecord
100
AcDbLayerTableRecord
  2
YARDIMCI_GEOMETRI
 70
     0
 62
    -6
  6
Continuous
290
     0
370
    -3
390
F
  0
LAYER
  5
75
330
2
100
AcDbSymbolTableRecord
100
AcDbLayerTableRecord
  2
SAYFA_CERCEVESI
 70
     0
 62
     7
  6
Continuous
370
    25
390
F
  0
LAYER
  5
76
330
2
100
AcDbSymbolTableRecord
100
AcDbLayerTableRecord
  2
ANTET
 70
     0
 62
     7
  6
Continuous
370
    -3
390
F
  0
LAYER
  5
77
330
2
100
AcDbSymbolTableRecord
100
AcDbLayerTableRecord
  2
OLCU
 70
     0
 62
   150
  6
Continuous
370
    -3
390
F
  0
LAYER
  5
78
330
2
100
AcDbSymbolTableRecord
100
AcDbLayerTableRecord
  2
METIN
 70
     0
 62
    96
  6
Continuous
370
    -3
390
F
  0
LAYER
  5
79
330
2
100
AcDbSymbolTableRecord
100
AcDbLayerTableRecord
  2
BALON
 70
     0
 62
     5
  6
Continuous
370
    -3
390
F
  0
LAYER
  5
7A
330
2
100
AcDbSymbolTableRecord
100
AcDbLayerTableRecord
  2
VURGU
 70
     0
 62
     7
  6
Continuous
370
    -3
390
F
  0
LAYER
  5
7B
330
2
100
AcDbSymbolTableRecord
100
AcDbLayerTableRecord
  2
SILIK
 70
     0
 62
     7
  6
Continuous
370
    -3
390
F
  0
LAYER
  5
7C
330
2
100
AcDbSymbolTableRecord
100
AcDbLayerTableRecord
  2
MODEL
 70
     0
 62
     7
  6
Continuous
370
    -3
390
F
  0
LAYER
  5
7D
330
2
100
AcDbSymbolTableRecord
100
AcDbLayerTableRecord
  2
DETAYLANDıRMA
 70
     0
 62
   190
  6
Continuous
370
    -3
390
F
  0
LAYER
  5
7E
330
2
100
AcDbSymbolTableRecord
100
AcDbLayerTableRecord
  2
TOLERANS
 70
     0
 62
   230
  6
Continuous
370
    -3
390
F
  0
LAYER
  5
7F
330
2
100
AcDbSymbolTableRecord
100
AcDbLayerTableRecord
  2
MERKEZ_CIZGILERI
 70
     0
 62
    30
  6
Continuous
370
    -3
390
F
  0
LAYER
  5
80
330
2
100
AcDbSymbolTableRecord
100
AcDbLayerTableRecord
  2
KESIT-DETAY_CIZGILERI
 70
     0
 62
     7
  6
Continuous
370
    -3
390
F
  0
LAYER
  5
81
330
2
100
AcDbSymbolTableRecord
100
AcDbLayerTableRecord
  2
\U+041E\U+0421\U+0415\U+0412\U+042B\U+0415
 70
     0
 62
     7
  6
Continuous
370
    -3
390
F
  0
LAYER
  5
82
330
2
100
AcDbSymbolTableRecord
100
AcDbLayerTableRecord
  2
\U+0412\U+041E\U+0414\U+042F\U+041D\U+042B\U+0415_\U+0417\U+041D\U+0410\U+041A\U+0418
 70
     0
 62
    11
  6
Continuous
370
    -3
390
F
  0
ENDTAB
  0
TABLE
  2
STYLE
  5
3
330
0
100
AcDbSymbolTable
 70
     1
  0
STYLE
  5
11
330
3
100
AcDbSymbolTableRecord
100
AcDbTextStyleTableRecord
  2
Standard
 70
     0
 40
0.0
 41
1.0
 50
0.0
 71
     0
 42
3.5
  3
txt
  4

  0
ENDTAB
  0
TABLE
  2
VIEW
  5
6
330
0
100
AcDbSymbolTable
 70
     0
  0
ENDTAB
  0
TABLE
  2
UCS
  5
7
330
0
100
AcDbSymbolTable
 70
     0
  0
ENDTAB
  0
TABLE
  2
APPID
  5
9
330
0
100
AcDbSymbolTable
 70
     1
  0
APPID
  5
12
330
9
100
AcDbSymbolTableRecord
100
AcDbRegAppTableRecord
  2
ACAD
 70
     0
  0
ENDTAB
  0
TABLE
  2
DIMSTYLE
  5
A
330
0
100
AcDbSymbolTable
 70
     1
100
AcDbDimStyleTable
  0
DIMSTYLE
105
27
330
A
100
AcDbSymbolTableRecord
100
AcDbDimStyleTableRecord
  2
ISO-25
 70
     0
 41
2.5
 42
0.625
 43
3.75
 44
1.25
 73
     0
 74
     0
 77
     1
 78
     8
140
2.5
141
2.5
143
0.0393700787
147
0.625
171
     3
172
     1
178
     0
271
     2
272
     2
274
     3
278
    44
283
     0
284
     8
340
11
  0
ENDTAB
  0
TABLE
  2
BLOCK_RECORD
  5
1
330
0
100
AcDbSymbolTable
 70
     3
  0
BLOCK_RECORD
  5
1F
330
1
100
AcDbSymbolTableRecord
100
AcDbBlockTableRecord
  2
*Model_Space
340
22
  0
BLOCK_RECORD
  5
1B
330
1
100
AcDbSymbolTableRecord
100
AcDbBlockTableRecord
  2
*Paper_Space
340
1E
  0
BLOCK_RECORD
  5
23
330
1
100
AcDbSymbolTableRecord
100
AcDbBlockTableRecord
  2
*Paper_Space0
340
26
  0
BLOCK_RECORD
  5
88
330
1
100
AcDbSymbolTableRecord
100
AcDbBlockTableRecord
  2
SW_CENTERMARKSYMBOL_0
340
0
102
{BLKREFS
331
93
102
}
  0
BLOCK_RECORD
  5
B2
330
1
100
AcDbSymbolTableRecord
100
AcDbBlockTableRecord
  2
SW_CENTERMARKSYMBOL_1
340
0
102
{BLKREFS
331
BD
102
}
  0
ENDTAB
  0
ENDSEC
  0
SECTION
  2
BLOCKS
  0
BLOCK
  5
20
330
1F
100
AcDbEntity
  8
0
100
AcDbBlockBegin
  2
*Model_Space
 70
     0
 10
0.0
 20
0.0
 30
0.0
  3
*Model_Space
  1

  0
ENDBLK
  5
21
330
1F
100
AcDbEntity
  8
0
100
AcDbBlockEnd
  0
BLOCK
  5
1C
330
1B
100
AcDbEntity
 67
     1
  8
0
100
AcDbBlockBegin
  2
*Paper_Space
 70
     0
 10
0.0
 20
0.0
 30
0.0
  3
*Paper_Space
  1

  0
ENDBLK
  5
1D
330
1B
100
AcDbEntity
 67
     1
  8
0
100
AcDbBlockEnd
  0
BLOCK
  5
24
330
23
100
AcDbEntity
  8
0
100
AcDbBlockBegin
  2
*Paper_Space0
 70
     0
 10
0.0
 20
0.0
 30
0.0
  3
*Paper_Space0
  1

  0
ENDBLK
  5
25
330
23
100
AcDbEntity
  8
0
100
AcDbBlockEnd
  0
BLOCK
  5
89
330
88
100
AcDbEntity
  8
0
100
AcDbBlockBegin
  2
SW_CENTERMARKSYMBOL_0
 70
     0
 10
0.0
 20
0.0
 30
0.0
  3
SW_CENTERMARKSYMBOL_0
  1

  0
LINE
  5
8B
330
88
100
AcDbEntity
  8
FORMAT
 62
     0
100
AcDbLine
 10
0.0
 20
0.0
 30
0.0
 11
0.0
 21
2.5
 31
0.0
  0
LINE
  5
8C
330
88
100
AcDbEntity
  8
FORMAT
 62
     0
100
AcDbLine
 10
0.0
 20
0.0
 30
0.0
 11
-2.5
 21
0.0
 31
0.0
  0
LINE
  5
8D
330
88
100
AcDbEntity
  8
FORMAT
 62
     0
100
AcDbLine
 10
0.0
 20
0.0
 30
0.0
 11
0.0
 21
-2.5
 31
0.0
  0
LINE
  5
8E
330
88
100
AcDbEntity
  8
FORMAT
 62
     0
100
AcDbLine
 10
0.0
 20
0.0
 30
0.0
 11
2.5
 21
0.0
 31
0.0
  0
LINE
  5
8F
330
88
100
AcDbEntity
  8
FORMAT
 62
     0
100
AcDbLine
 10
0.0
 20
5.0
 30
0.0
 11
0.0
 21
127.5
 31
0.0
  0
LINE
  5
90
330
88
100
AcDbEntity
  8
FORMAT
 62
     0
100
AcDbLine
 10
-5.0
 20
0.0
 30
0.0
 11
-127.5
 21
0.0
 31
0.0
  0
LINE
  5
91
330
88
100
AcDbEntity
  8
FORMAT
 62
     0
100
AcDbLine
 10
0.0
 20
-5.0
 30
0.0
 11
0.0
 21
-127.5
 31
0.0
  0
LINE
  5
92
330
88
100
AcDbEntity
  8
FORMAT
 62
     0
100
AcDbLine
 10
5.0
 20
0.0
 30
0.0
 11
127.5
 21
0.0
 31
0.0
  0
ENDBLK
  5
8A
330
88
100
AcDbEntity
  8
0
100
AcDbBlockEnd
  0
BLOCK
  5
B3
330
B2
100
AcDbEntity
  8
0
100
AcDbBlockBegin
  2
SW_CENTERMARKSYMBOL_1
 70
     0
 10
0.0
 20
0.0
 30
0.0
  3
SW_CENTERMARKSYMBOL_1
  1

  0
LINE
  5
B5
330
B2
100
AcDbEntity
  8
FORMAT
 62
     0
100
AcDbLine
 10
0.0
 20
0.0
 30
0.0
 11
0.0
 21
2.5
 31
0.0
  0
LINE
  5
B6
330
B2
100
AcDbEntity
  8
FORMAT
 62
     0
100
AcDbLine
 10
0.0
 20
0.0
 30
0.0
 11
-2.5
 21
0.0
 31
0.0
  0
LINE
  5
B7
330
B2
100
AcDbEntity
  8
FORMAT
 62
     0
100
AcDbLine
 10
0.0
 20
0.0
 30
0.0
 11
0.0
 21
-2.5
 31
0.0
  0
LINE
  5
B8
330
B2
100
AcDbEntity
  8
FORMAT
 62
     0
100
AcDbLine
 10
0.0
 20
0.0
 30
0.0
 11
2.5
 21
0.0
 31
0.0
  0
LINE
  5
B9
330
B2
100
AcDbEntity
  8
FORMAT
 62
     0
100
AcDbLine
 10
0.0
 20
5.0
 30
0.0
 11
0.0
 21
102.5
 31
0.0
  0
LINE
  5
BA
330
B2
100
AcDbEntity
  8
FORMAT
 62
     0
100
AcDbLine
 10
-5.0
 20
0.0
 30
0.0
 11
-102.5
 21
0.0
 31
0.0
  0
LINE
  5
BB
330
B2
100
AcDbEntity
  8
FORMAT
 62
     0
100
AcDbLine
 10
0.0
 20
-5.0
 30
0.0
 11
0.0
 21
-102.5
 31
0.0
  0
LINE
  5
BC
330
B2
100
AcDbEntity
  8
FORMAT
 62
     0
100
AcDbLine
 10
5.0
 20
0.0
 30
0.0
 11
102.5
 21
0.0
 31
0.0
  0
ENDBLK
  5
B4
330
B2
100
AcDbEntity
  8
0
100
AcDbBlockEnd
  0
ENDSEC
  0
SECTION
  2
ENTITIES
  0
LINE
  5
83
330
1F
100
AcDbEntity
  8
0
  6
Continuous
 62
     7
370
    25
100
AcDbLine
 10
138.0577648746
 20
7.6223089761
 30
0.0
 11
341.0109159902
 21
7.6223089761
 31
0.0
  0
LINE
  5
84
330
1F
100
AcDbEntity
  8
0
  6
Continuous
 62
     7
370
    25
100
AcDbLine
 10
341.0109159902
 20
207.6223089761
 30
0.0
 11
138.1054224443
 21
207.6223089761
 31
0.0
  0
CIRCLE
  5
85
330
1F
100
AcDbEntity
  8
0
  6
Continuous
 62
     7
370
    25
100
AcDbCircle
 10
63.0109159902
 20
107.6223089761
 30
0.0
 40
102.3
  0
CIRCLE
  5
86
330
1F
100
AcDbEntity
  8
0
  6
Continuous
 62
     7
370
    25
100
AcDbCircle
 10
63.0109159902
 20
107.6223089761
 30
0.0
 40
125.0
  0
LINE
  5
87
330
1F
100
AcDbEntity
  8
0
  6
Continuous
 62
     7
370
    25
100
AcDbLine
 10
341.0109159902
 20
207.6223089761
 30
0.0
 11
341.0109159902
 21
7.6223089761
 31
0.0
  0
INSERT
  5
93
330
1F
100
AcDbEntity
  8
FORMAT
100
AcDbBlockReference
  2
SW_CENTERMARKSYMBOL_0
 10
63.0109159902
 20
107.6223089761
 30
0.0
  0
LINE
  5
94
330
1F
100
AcDbEntity
  8
0
  6
Continuous
 62
     7
370
    25
100
AcDbLine
 10
-61.9890840098
 20
-225.9733326545
 30
0.0
 11
-61.9890840098
 21
-815.9733326545
 31
0.0
  0
LINE
  5
95
330
1F
100
AcDbEntity
  8
0
  6
Continuous
 62
     7
370
    25
100
AcDbLine
 10
188.0109159902
 20
-421.0382440664
 30
0.0
 11
188.0109159902
 21
-225.9733326545
 31
0.0
  0
LINE
  5
96
330
1F
100
AcDbEntity
  8
0
  6
Continuous
 62
     7
370
    25
100
AcDbLine
 10
188.0109159902
 20
-815.9733326545
 30
0.0
 11
188.0109159902
 21
-620.9733326545
 31
0.0
  0
LINE
  5
97
330
1F
100
AcDbEntity
  8
0
  6
Continuous
 62
     7
370
    25
100
AcDbLine
 10
188.0109159902
 20
-620.9733326545
 30
0.0
 11
341.0109159902
 21
-620.9733326545
 31
0.0
  0
LINE
  5
98
330
1F
100
AcDbEntity
  8
0
  6
Continuous
 62
     7
370
    25
100
AcDbLine
 10
341.0109159902
 20
-420.9733326545
 30
0.0
 11
187.9589539578
 21
-420.9733326545
 31
0.0
  0
LWPOLYLINE
  5
99
330
1F
100
AcDbEntity
  8
0
  6
Continuous
 62
     7
370
    25
100
AcDbPolyline
 90
       46
 70
   128
 43
0.0
 10
187.9589528933
 20
-421.0382440664
 10
187.9322133111
 20
-421.0715994993
 10
187.4607806021
 20
-421.6618589874
 10
186.6869944302
 20
-422.6331753605
 10
185.5966429639
 20
-424.0080787867
 10
184.1678872741
 20
-425.8206962969
 10
182.450824319
 20
-428.0169358785
 10
180.3927669011
 20
-430.6765361141
 10
178.0860797724
 20
-433.6962261517
 10
175.5094053736
 20
-437.122717955
 10
172.743470615
 20
-440.8719372579
 10
169.3221287759
 20
-445.6266871602
 10
165.7466715862
 20
-450.7619697716
 10
161.999608345
 20
-456.3680802687
 10
158.2149989676
 20
-462.3319017753
 10
153.790491073
 20
-469.8248998356
 10
149.5463684414
 20
-477.8063947166
 10
145.5154255662
 20
-486.5911857355
 10
142.0887219062
 20
-495.9074317433
 10
140.6352929843
 20
-500.9609604022
 10
139.4641700731
 20
-506.1375630465
 10
138.6009101945
 20
-511.5545442259
 10
138.1137198254
 20
-517.0450831837
 10
138.026266114
 20
-522.4397125238
 10
138.3230311775
 20
-527.8227628488
 10
139.021600846
 20
-533.3227400144
 10
140.0839373453
 20
-538.7286310413
 10
141.8446440247
 20
-545.2568797147
 10
144.0099250031
 20
-551.564825934
 10
146.5632073632
 20
-557.7976622815
 10
149.3663667936
 20
-563.7782842776
 10
153.6244569817
 20
-571.8265661305
 10
158.0708436166
 20
-579.3804370198
 10
162.6914446486
 20
-586.6343774264
 10
167.2387748961
 20
-593.3504462479
 10
171.5114292339
 20
-599.3789666982
 10
175.5018356844
 20
-604.8136989087
 10
179.2370288543
 20
-609.7628315265
 10
182.4445709311
 20
-613.9216942997
 10
184.1914227117
 20
-616.1559397344
 10
185.6389233695
 20
-617.9920328818
 10
186.7856563955
 20
-619.4375665568
 10
187.5657193799
 20
-620.4162763329
 10
187.8987504019
 20
-620.833090235
 10
188.0109159902
 20
-620.9733326545
 10
188.0109159902
 20
-620.9733326545
  0
LINE
  5
9A
330
1F
100
AcDbEntity
  8
0
  6
Continuous
 62
     7
370
    25
100
AcDbLine
 10
188.0109159902
 20
-815.9733326545
 30
0.0
 11
-61.9890840098
 21
-815.9733326545
 31
0.0
  0
LINE
  5
9B
330
1F
100
AcDbEntity
  8
0
  6
Continuous
 62
     7
370
    25
100
AcDbLine
 10
188.0109159902
 20
-225.9733326545
 30
0.0
 11
-61.9890840098
 21
-225.9733326545
 31
0.0
  0
LINE
  5
9C
330
1F
100
AcDbEntity
  8
0
  6
Continuous
 62
     7
370
    25
100
AcDbLine
 10
341.0109159902
 20
-420.9733326545
 30
0.0
 11
341.0109159902
 21
-620.9733326545
 31
0.0
  0
LINE
  5
9D
330
1F
100
AcDbEntity
  8
0
  6
Continuous
 62
     7
370
    25
100
AcDbLine
 10
188.0109159902
 20
783.6328901901
 30
0.0
 11
188.0109159902
 21
978.6328901901
 31
0.0
  0
LINE
  5
9E
330
1F
100
AcDbEntity
  8
0
  6
Continuous
 62
     7
370
    25
100
AcDbLine
 10
188.0109159902
 20
388.6328901901
 30
0.0
 11
188.0109159902
 21
583.6970057407
 31
0.0
  0
LINE
  5
9F
330
1F
100
AcDbEntity
  8
0
  6
Continuous
 62
     7
370
    25
100
AcDbLine
 10
-61.9890840098
 20
978.6328901901
 30
0.0
 11
-61.9890840098
 21
388.6328901901
 31
0.0
  0
LINE
  5
A0
330
1F
100
AcDbEntity
  8
0
  6
Continuous
 62
     7
370
    25
100
AcDbLine
 10
187.9596314327
 20
583.6328901901
 30
0.0
 11
341.0109159902
 21
583.6328901901
 31
0.0
  0
LINE
  5
A1
330
1F
100
AcDbEntity
  8
0
  6
Continuous
 62
     7
370
    25
100
AcDbLine
 10
341.0109159902
 20
783.6328901901
 30
0.0
 11
188.0109159902
 21
783.6328901901
 31
0.0
  0
SPLINE
  5
A2
330
1F
100
AcDbEntity
  8
0
  6
Continuous
 62
     7
370
    25
100
AcDbSpline
210
0.0
220
0.0
230
1.0
 70
     8
 71
     3
 72
    50
 73
    46
 74
     0
 42
0.000000001
 43
0.00000001
 40
0.0
 40
0.0
 40
0.0
 40
0.0
 40
0.0212212297129521
 40
0.0426167441951588
 40
0.0645487278849348
 40
0.086657587212323
 40
0.1078747747023311
 40
0.1292283104369023
 40
0.1509742705336061
 40
0.1728404296832529
 40
0.2014141027022743
 40
0.2302045641969956
 40
0.2596136908654902
 40
0.2892143060186193
 40
0.3182390397157101
 40
0.3474448208879359
 40
0.3772859973666758
 40
0.4074040384629626
 40
0.424104562160074
 40
0.4408860513095782
 40
0.4579635119244058
 40
0.475165131193151
 40
0.4918737140046152
 40
0.5087249791251782
 40
0.5260277462140235
 40
0.543481641043054
 40
0.5629164346070755
 40
0.5825096362740955
 40
0.6025147484643733
 40
0.6226300972989043
 40
0.6516829079382709
 40
0.680954027728492
 40
0.7108308874077977
 40
0.7409001439422614
 40
0.770639482495795
 40
0.800589170323935
 40
0.8312790547359037
 40
0.8622688216356419
 40
0.8834935911712274
 40
0.9048456401314025
 40
0.9266301923724061
 40
0.9485792808794896
 40
0.9698097311464102
 40
0.9912110541121306
 40
1.0
 40
1.0
 40
1.0
 40
1.0
 10
188.0109159902225
 20
783.6328901900725
 30
0.0
 10
187.9723787256901
 20
783.5847402099816
 30
0.0
 10
187.8949876994974
 20
783.48804480579
 30
0.0
 10
187.2663814841851
 20
782.7012725978848
 30
0.0
 10
186.2579432161046
 20
781.4342850508967
 30
0.0
 10
184.8611758666439
 20
779.6692596466281
 30
0.0
 10
183.1350290575635
 20
777.4706879205879
 30
0.0
 10
181.113646760738
 20
774.8705482600817
 30
0.0
 10
178.7956814239226
 20
771.8517254512838
 30
0.0
 10
175.9508400872203
 20
768.0894701599457
 30
0.0
 10
172.5385033253748
 20
763.4803646577716
 30
0.0
 10
168.5268877699999
 20
757.8918801878469
 30
0.0
 10
164.2736339197611
 20
751.726394069676
 30
0.0
 10
159.9053405728723
 20
745.0575226337638
 30
0.0
 10
155.5450548720277
 20
737.9392190509885
 30
0.0
 10
151.2828588520556
 20
730.3418863938545
 30
0.0
 10
147.2210163060088
 20
722.172033232576
 30
0.0
 10
144.1065293649129
 20
714.7175173108146
 30
0.0
 10
141.9005262403554
 20
708.262509577372
 30
0.0
 10
140.4084927746398
 20
702.9824769334755
 30
0.0
 10
139.2191992282402
 20
697.5143695564935
 30
0.0
 10
138.4014024632573
 20
691.9434486420946
 30
0.0
 10
137.9899056019517
 20
686.3270333997052
 30
0.0
 10
137.9973551099508
 20
680.6754425967031
 30
0.0
 10
138.438113059999
 20
674.9673601104633
 30
0.0
 10
139.3391950023814
 20
669.0540432364677
 30
0.0
 10
140.7149048402658
 20
663.0252434957697
 30
0.0
 10
142.560904492739
 20
656.9117136143813
 30
0.0
 10
144.7670592554232
 20
650.9399005770009
 30
0.0
 10
147.6311899017713
 20
644.280471596125
 30
0.0
 10
151.1990478487898
 20
637.0851468269203
 30
0.0
 10
155.462287592963
 20
629.4635550726092
 30
0.0
 10
159.8916689449351
 20
622.2264013563125
 30
0.0
 10
164.3417969704639
 20
615.4367930190376
 30
0.0
 10
168.6866408924378
 20
609.1453215092541
 30
0.0
 10
172.8540252375652
 20
603.3505268826876
 30
0.0
 10
176.7658194688468
 20
598.0831946516123
 30
0.0
 10
179.92297797675
 20
593.9380793037882
 30
0.0
 10
182.3637299397608
 20
590.7838603378054
 30
0.0
 10
184.2088307776764
 20
588.4251024935974
 30
0.0
 10
185.7407978752547
 20
586.4835656875005
 30
0.0
 10
186.9096296935451
 20
585.0121034873812
 30
0.0
 10
187.6596722721347
 20
584.0719855536698
 30
0.0
 10
188.0166129825002
 20
583.6257652331292
 30
0.0
 10
187.972478745519
 20
583.6809425908699
 30
0.0
 10
187.9596304524974
 20
583.6970057406805
 30
0.0
  0
LINE
  5
A3
330
1F
100
AcDbEntity
  8
0
  6
Continuous
 62
     7
370
    25
100
AcDbLine
 10
-61.9890840098
 20
978.6328901901
 30
0.0
 11
188.0109159902
 21
978.6328901901
 31
0.0
  0
LINE
  5
A4
330
1F
100
AcDbEntity
  8
0
  6
Continuous
 62
     7
370
    25
100
AcDbLine
 10
-61.9890840098
 20
388.6328901901
 30
0.0
 11
188.0109159902
 21
388.6328901901
 31
0.0
  0
LINE
  5
A5
330
1F
100
AcDbEntity
  8
0
  6
Continuous
 62
     7
370
    25
100
AcDbLine
 10
341.0109159902
 20
783.6328901901
 30
0.0
 11
341.0109159902
 21
583.6328901901
 31
0.0
  0
LINE
  5
A6
330
1F
100
AcDbEntity
  8
0
  6
Continuous
 62
     7
370
    25
100
AcDbLine
 10
452.9610935938
 20
-17.3776910239
 30
0.0
 11
1042.9610935938
 21
-17.3776910239
 31
0.0
  0
LINE
  5
A7
330
1F
100
AcDbEntity
  8
0
  6
Continuous
 62
     7
370
    25
100
AcDbLine
 10
1042.9610935938
 20
232.6223089761
 30
0.0
 11
452.9610935938
 21
232.6223089761
 31
0.0
  0
LINE
  5
A8
330
1F
100
AcDbEntity
  8
0
  6
Continuous
 62
     7
370
    25
100
AcDbLine
 10
1042.9610935938
 20
232.6223089761
 30
0.0
 11
1042.9610935938
 21
-17.3776910239
 31
0.0
  0
LINE
  5
A9
330
1F
100
AcDbEntity
  8
0
  6
Continuous
 62
     7
370
    25
100
AcDbLine
 10
452.9610935938
 20
232.6223089761
 30
0.0
 11
452.9610935938
 21
-17.3776910239
 31
0.0
  0
LINE
  5
AA
330
1F
100
AcDbEntity
  8
0
  6
Continuous
 62
     7
370
    25
100
AcDbLine
 10
-179.7958046136
 20
232.6223089761
 30
0.0
 11
-769.7958046136
 21
232.6223089761
 31
0.0
  0
LINE
  5
AB
330
1F
100
AcDbEntity
  8
0
  6
Continuous
 62
     7
370
    25
100
AcDbLine
 10
-769.7958046136
 20
-17.3776910239
 30
0.0
 11
-179.7958046136
 21
-17.3776910239
 31
0.0
  0
CIRCLE
  5
AC
330
1F
100
AcDbEntity
  8
0
  6
Continuous
 62
     7
370
    25
100
AcDbCircle
 10
-474.7958046136
 20
107.6223089761
 30
0.0
 40
81.80000000000001
  0
CIRCLE
  5
AD
330
1F
100
AcDbEntity
  8
0
  6
Continuous
 62
     7
370
    25
100
AcDbCircle
 10
-474.7958046136
 20
107.6223089761
 30
0.0
 40
100.0000000000001
  0
LINE
  5
AE
330
1F
100
AcDbEntity
  8
0
  6
Continuous
 62
     7
370
    25
100
AcDbLine
 10
-769.7958046136
 20
107.6223089761
 30
0.0
 11
-769.7958046136
 21
232.6223089761
 31
0.0
  0
LINE
  5
AF
330
1F
100
AcDbEntity
  8
0
  6
Continuous
 62
     7
370
    25
100
AcDbLine
 10
-769.7958046136
 20
-17.3776910239
 30
0.0
 11
-769.7958046136
 21
107.6223089761
 31
0.0
  0
LINE
  5
B0
330
1F
100
AcDbEntity
  8
0
  6
Continuous
 62
     7
370
    25
100
AcDbLine
 10
-179.7958046136
 20
107.6223089761
 30
0.0
 11
-179.7958046136
 21
232.6223089761
 31
0.0
  0
LINE
  5
B1
330
1F
100
AcDbEntity
  8
0
  6
Continuous
 62
     7
370
    25
100
AcDbLine
 10
-179.7958046136
 20
-17.3776910239
 30
0.0
 11
-179.7958046136
 21
107.6223089761
 31
0.0
  0
INSERT
  5
BD
330
1F
100
AcDbEntity
  8
FORMAT
100
AcDbBlockReference
  2
SW_CENTERMARKSYMBOL_1
 10
-474.7958046136
 20
107.6223089761
 30
0.0
  0
LINE
  5
BE
330
1F
100
AcDbEntity
  8
0
  6
Continuous
 62
     7
370
    25
100
AcDbLine
 10
641.2024867259
 20
-201.5894459239
 30
0.0
 11
470.0988752164
 21
-102.813433506
 31
0.0
  0
LINE
  5
BF
330
1F
100
AcDbEntity
  8
0
  6
Continuous
 62
     7
370
    25
100
AcDbLine
 10
887.2918761165
 20
-343.6538264937
 30
0.0
 11
841.2187415197
 21
-317.0563720337
 31
0.0
  0
LINE
  5
C0
330
1F
100
AcDbEntity
  8
0
  6
Continuous
 62
     7
370
    25
100
AcDbLine
 10
345.1090336369
 20
-319.3256491012
 30
0.0
 11
762.302034537
 21
-560.1660420889
 31
0.0
  0
LINE
  5
C1
330
1F
100
AcDbEntity
  8
0
  6
Continuous
 62
     7
370
    25
100
AcDbLine
 10
739.0643959169
 20
-376.0288204864
 30
0.0
 11
862.7720766784
 21
-304.6138964922
 31
0.0
  0
LINE
  5
C2
330
1F
100
AcDbEntity
  8
0
  6
Continuous
 62
     7
370
    25
100
AcDbLine
 10
762.7802034148
 20
-131.404124016
 30
0.0
 11
639.0769521172
 21
-202.8164909352
 31
0.0
  0
SPLINE
  5
C3
330
1F
100
AcDbEntity
  8
0
  6
Continuous
 62
     7
370
    25
100
AcDbSpline
210
0.0
220
0.0
230
1.0
 70
     8
 71
     3
 72
    40
 73
    36
 74
     0
 42
0.000000001
 43
0.00000001
 40
0.0
 40
0.0
 40
0.0
 40
0.0
 40
0.0281896354762871
 40
0.0568491639726451
 40
0.0857445655030204
 40
0.1151133011354894
 40
0.1432975670458821
 40
0.1718382142999037
 40
0.2005496195816086
 40
0.2295959596869049
 40
0.2675523570078962
 40
0.3060741313615568
 40
0.3448629085928442
 40
0.3841834645798184
 40
0.422739037173141
 40
0.4618161137089156
 40
0.5011752574625127
 40
0.5411831463194895
 40
0.5633676135559631
 40
0.5857890414493514
 40
0.6083448258148859
 40
0.6311949331530033
 40
0.6533901058716257
 40
0.6759738758291864
 40
0.6987592850502777
 40
0.7219445075622195
 40
0.7477610956458158
 40
0.773973403115696
 40
0.800362271470972
 40
0.8270828884565985
 40
0.8656757576052457
 40
0.9048310777808142
 40
0.9442461260789963
 40
0.9841892110092798
 40
1.0
 40
1.0
 40
1.0
 40
1.0
 10
633.878124406385
 20
-239.6438252174061
 30
0.0
 10
633.8849250492796
 20
-241.6024539315077
 30
0.0
 10
633.8986396949815
 20
-245.5523597407954
 30
0.0
 10
634.0108111887106
 20
-251.9336940772807
 30
0.0
 10
634.1939495595163
 20
-258.6487437808597
 30
0.0
 10
634.4536320947176
 20
-265.5484671704829
 30
0.0
 10
634.7883676835409
 20
-272.5684745030223
 30
0.0
 10
635.197851735197
 20
-279.6312552713003
 30
0.0
 10
635.693695900629
 20
-286.8146106509918
 30
0.0
 10
636.3412210849162
 20
-294.7891496794031
 30
0.0
 10
637.1896936525504
 20
-303.53969262071
 30
0.0
 10
638.3053967224807
 20
-312.9708259935114
 30
0.0
 10
639.6584857926795
 20
-322.3224286974551
 30
0.0
 10
641.2813867049769
 20
-331.4288473474036
 30
0.0
 10
643.2362947607371
 20
-340.2566711761755
 30
0.0
 10
645.596059732623
 20
-348.7310982690013
 30
0.0
 10
648.5031534220152
 20
-356.8721998507215
 30
0.0
 10
651.563566392898
 20
-363.3860219889932
 30
0.0
 10
654.5726595321231
 20
-368.4191262477966
 30
0.0
 10
657.2520469105592
 20
-372.1566263685764
 30
0.0
 10
660.2785774022709
 20
-375.6276161987442
 30
0.0
 10
663.6331317151195
 20
-378.7373525763038
 30
0.0
 10
667.3244100073734
 20
-381.4582286081017
 30
0.0
 10
671.3274290090557
 20
-383.755782013302
 30
0.0
 10
675.6763058777633
 20
-385.6336181200559
 30
0.0
 10
680.4815060790796
 20
-387.1153372261628
 30
0.0
 10
685.7301966118155
 20
-388.1418271675709
 30
0.0
 10
691.3590490254917
 20
-388.6659561696258
 30
0.0
 10
697.1417311987287
 20
-388.6841133924089
 30
0.0
 10
703.8626210506344
 20
-388.1625108367284
 30
0.0
 10
711.4917057487175
 20
-386.8744370619417
 30
0.0
 10
719.9011923091914
 20
-384.625911823738
 30
0.0
 10
728.1263564668483
 20
-381.5583659755696
 30
0.0
 10
734.5448757143092
 20
-378.6514264566924
 30
0.0
 10
738.0283948582371
 20
-376.5440328455116
 30
0.0
 10
739.0162578040087
 20
-375.9464141804125
 30
0.0
  0
SPLINE
  5
C4
330
1F
100
AcDbEntity
  8
0
  6
Continuous
 62
     7
370
    25
100
AcDbSpline
210
0.0
220
0.0
230
1.0
 70
     8
 71
     3
 72
    18
 73
    14
 74
     0
 42
0.000000001
 43
0.00000001
 40
0.0
 40
0.0
 40
0.0
 40
0.0
 40
0.0323675400573246
 40
0.155040461437612
 40
0.2786883726325941
 40
0.4058488976996705
 40
0.5344605104556386
 40
0.6173297495010199
 40
0.7012766499927384
 40
0.7857975952521604
 40
0.8715251421901868
 40
0.9356167710150589
 40
1.0
 40
1.0
 40
1.0
 40
1.0
 10
639.1174722393516
 20
-202.8888555748035
 30
0.0
 10
638.9835682086072
 20
-202.9373995950925
 30
0.0
 10
638.3421681306825
 20
-203.1699253691339
 30
0.0
 10
637.4603138435014
 20
-204.4042300328301
 30
0.0
 10
636.4139136154333
 20
-206.6966107789301
 30
0.0
 10
635.5730840004422
 20
-210.0581624199055
 30
0.0
 10
634.9793983765486
 20
-213.9661812210193
 30
0.0
 10
634.5716880288093
 20
-218.0601978216491
 30
0.0
 10
634.2951597906306
 20
-222.001374721895
 30
0.0
 10
634.0855876602956
 20
-226.445965520255
 30
0.0
 10
633.9579420158843
 20
-230.9620583585267
 30
0.0
 10
633.8895795988622
 20
-235.3836420642369
 30
0.0
 10
633.8819485772693
 20
-238.2216170433709
 30
0.0
 10
633.878124406385
 20
-239.6438252174061
 30
0.0
  0
LWPOLYLINE
  5
C5
330
1F
100
AcDbEntity
  8
0
  6
Continuous
 62
     7
370
    25
100
AcDbPolyline
 90
      119
 70
   128
 43
0.0
 10
495.992302075
 20
-160.0440343147
 10
495.8670288878
 20
-154.6840932543
 10
495.4915644265
 20
-149.4839828726
 10
494.866972986
 20
-144.4584434472
 10
493.9950250386
 20
-139.6217204158
 10
492.8781922154
 20
-134.9875239953
 10
491.5196403005
 20
-130.5689903188
 10
489.9232202568
 20
-126.3786442003
 10
488.0934573104
 20
-122.4283636309
 10
486.0355381232
 20
-118.7293461102
 10
483.7552960908
 20
-115.2920769052
 10
481.2591948067
 20
-112.1262993289
 10
478.5543097415
 20
-109.2409871219
 10
475.6483081856
 20
-106.644319015
 10
472.5494275162
 20
-104.3436555461
 10
469.2664518472
 20
-102.3455181957
 10
465.8086871299
 20
-100.6555709014
 10
462.1859347739
 20
-99.2786040022
 10
458.4084638646
 20
-98.2185206605
 10
454.4869820535
 20
-97.4783257977
 10
450.4326052069
 20
-97.0601175765
 10
446.2568258966
 20
-96.9650814536
 10
441.9714808225
 20
-97.1934868192
 10
437.588717261
 20
-97.7446862335
 10
433.1209586314
 20
-98.6171172618
 10
428.5808692811
 20
-99.8083069036
 10
423.9813185866
 20
-101.3148786025
 10
419.335344474
 20
-103.1325618172
 10
414.6561164618
 20
-105.2562041273
 10
409.9568983301
 20
-107.6797858378
 10
405.2510105233
 20
-110.3964370432
 10
400.5517923916
 20
-113.3984571003
 10
395.8725643793
 20
-116.6773364573
 10
391.2265902668
 20
-120.2237807742
 10
386.6270395723
 20
-124.0277372695
 10
382.086950222
 20
-128.0784232151
 10
377.6191915924
 20
-132.3643565015
 10
373.2364280309
 20
-136.8733881854
 10
368.9510829568
 20
-141.5927369264
 10
364.7753036464
 20
-146.5090252178
 10
360.7209267999
 20
-151.6083173064
 10
356.7994449888
 20
-156.8761586946
 10
353.0219740794
 20
-162.2976171137
 10
349.3992217235
 20
-167.8573248509
 10
345.9414570062
 20
-173.5395223105
 10
342.6584813372
 20
-179.3281026863
 10
339.5596006678
 20
-185.2066576186
 10
336.6535991119
 20
-191.1585237045
 10
333.9487140466
 20
-197.1668297332
 10
331.4526127626
 20
-203.2145445082
 10
329.1723707301
 20
-209.2845251251
 10
327.1144515429
 20
-215.3595655642
 10
325.2846885966
 20
-221.4224454635
 10
323.6882685529
 20
-227.4559789312
 10
322.329716638
 20
-233.443063261
 10
321.2128838148
 20
-239.3667274121
 10
320.3409358674
 20
-245.2101801148
 10
319.7163444269
 20
-250.9568574675
 10
319.3408799656
 20
-256.5904698889
 10
319.2156067784
 20
-262.0950482925
 10
319.3408799656
 20
-267.4549893529
 10
319.7163444269
 20
-272.6550997346
 10
320.3409358674
 20
-277.68063916
 10
321.2128838148
 20
-282.5173621914
 10
322.329716638
 20
-287.1515586119
 10
323.6882685529
 20
-291.5700922884
 10
325.2846885966
 20
-295.760438407
 10
327.1144515429
 20
-299.7107189763
 10
329.1723707301
 20
-303.409736497
 10
331.4526127626
 20
-306.847005702
 10
333.9487140466
 20
-310.0127832783
 10
336.6535991119
 20
-312.8980954853
 10
339.5596006678
 20
-315.4947635923
 10
342.6584813372
 20
-317.7954270612
 10
345.9414570062
 20
-319.7935644115
 10
349.3992217235
 20
-321.4835117059
 10
353.0219740794
 20
-322.860478605
 10
356.7994449888
 20
-323.9205619467
 10
360.7209267999
 20
-324.6607568095
 10
364.7753036464
 20
-325.0789650307
 10
368.9510829568
 20
-325.1740011536
 10
373.2364280309
 20
-324.945595788
 10
377.6191915924
 20
-324.3943963737
 10
382.086950222
 20
-323.5219653454
 10
386.6270395723
 20
-322.3307757036
 10
391.2265902668
 20
-320.8242040047
 10
395.8725643793
 20
-319.00652079
 10
400.5517923916
 20
-316.8828784799
 10
405.2510105233
 20
-314.4592967694
 10
409.9568983301
 20
-311.742645564
 10
414.6561164618
 20
-308.7406255069
 10
419.3353444741
 20
-305.4617461499
 10
423.9813185866
 20
-301.915301833
 10
428.5808692811
 20
-298.1113453377
 10
433.1209586314
 20
-294.0606593922
 10
437.588717261
 20
-289.7747261057
 10
441.9714808225
 20
-285.2656944218
 10
446.2568258966
 20
-280.5463456808
 10
450.4326052069
 20
-275.6300573894
 10
454.4869820535
 20
-270.5307653008
 10
458.4084638646
 20
-265.2629239126
 10
462.1859347739
 20
-259.8414654935
 10
465.8086871299
 20
-254.2817577563
 10
469.2664518472
 20
-248.5995602968
 10
472.5494275162
 20
-242.8109799209
 10
475.6483081856
 20
-236.9324249886
 10
478.5543097415
 20
-230.9805589027
 10
481.2591948067
 20
-224.9722528741
 10
483.7552960908
 20
-218.924538099
 10
486.0355381232
 20
-212.8545574822
 10
488.0934573104
 20
-206.779517043
 10
489.9232202568
 20
-200.7166371437
 10
491.5196403005
 20
-194.683103676
 10
492.8781922154
 20
-188.6960193462
 10
493.9950250386
 20
-182.7723551951
 10
494.866972986
 20
-176.9289024924
 10
495.4915644265
 20
-171.1822251397
 10
495.8670288878
 20
-165.5486127183
 10
495.992302075
 20
-160.0440343147
  0
LWPOLYLINE
  5
C6
330
1F
100
AcDbEntity
  8
0
  6
Continuous
 62
     7
370
    25
100
AcDbPolyline
 90
       16
 70
   128
 43
0.0
 10
913.1853029751
 20
-400.8844273024
 10
913.0600297878
 20
-395.524486242
 10
912.6845653265
 20
-390.3243758603
 10
912.059973886
 20
-385.2988364349
 10
911.1880259386
 20
-380.4621134035
 10
910.0711931155
 20
-375.827916983
 10
908.7126412005
 20
-371.4093833065
 10
907.1162211569
 20
-367.219037188
 10
905.2864582105
 20
-363.2687566186
 10
903.2285390233
 20
-359.5697390979
 10
900.9482969908
 20
-356.1324698929
 10
898.4521957068
 20
-352.9666923166
 10
895.7473106415
 20
-350.0813801096
 10
892.8413090856
 20
-347.4847120027
 10
889.7424284162
 20
-345.1840485338
 10
887.2918761165
 20
-343.6538264937
  0
LWPOLYLINE
  5
C7
330
1F
100
AcDbEntity
  8
0
  6
Continuous
 62
     7
370
    25
100
AcDbPolyline
 90
       46
 70
   128
 43
0.0
 10
762.302034537
 20
-560.1660420889
 10
763.1344579062
 20
-560.6339573992
 10
766.5922226236
 20
-562.3239046936
 10
770.2149749795
 20
-563.7008715927
 10
773.9924458888
 20
-564.7609549344
 10
777.9139276999
 20
-565.5011497972
 10
781.9683045465
 20
-565.9193580184
 10
786.1440838569
 20
-566.0143941413
 10
790.4294289309
 20
-565.7859887757
 10
794.8121924925
 20
-565.2347893614
 10
799.279951122
 20
-564.3623583331
 10
803.8200404723
 20
-563.1711686913
 10
808.4195911668
 20
-561.6645969924
 10
813.0655652794
 20
-559.8469137777
 10
817.7447932916
 20
-557.7232714676
 10
822.4440114233
 20
-555.2996897571
 10
827.1498992302
 20
-552.5830385517
 10
831.8491173619
 20
-549.5810184946
 10
836.5283453741
 20
-546.3021391376
 10
841.1743194867
 20
-542.7556948207
 10
845.7738701812
 20
-538.9517383254
 10
850.3139595315
 20
-534.9010523799
 10
854.781718161
 20
-530.6151190934
 10
859.1644817226
 20
-526.1060874095
 10
863.4498267966
 20
-521.3867386685
 10
867.625606107
 20
-516.4704503771
 10
871.6799829536
 20
-511.3711582885
 10
875.6014647647
 20
-506.1033169003
 10
879.378935674
 20
-500.6818584812
 10
883.0016880299
 20
-495.122150744
 10
886.4594527473
 20
-489.4399532845
 10
889.7424284162
 20
-483.6513729086
 10
892.8413090856
 20
-477.7728179763
 10
895.7473106415
 20
-471.8209518904
 10
898.4521957068
 20
-465.8126458618
 10
900.9482969908
 20
-459.7649310867
 10
903.2285390233
 20
-453.6949504699
 10
905.2864582105
 20
-447.6199100307
 10
907.1162211569
 20
-441.5570301314
 10
908.7126412005
 20
-435.5234966637
 10
910.0711931155
 20
-429.5364123339
 10
911.1880259386
 20
-423.6127481828
 10
912.059973886
 20
-417.7692954801
 10
912.6845653265
 20
-412.0226181274
 10
913.0600297878
 20
-406.389005706
 10
913.1853029751
 20
-400.8844273024
  0
LWPOLYLINE
  5
C8
330
1F
100
AcDbEntity
  8
0
  6
Continuous
 62
     7
370
    25
100
AcDbPolyline
 90
      108
 70
   128
 43
0.0
 10
479.9409781421
 20
-169.3102663839
 10
479.816297789
 20
-164.4799414835
 10
479.4426865287
 20
-159.8102205852
 10
478.8214322766
 20
-155.3172011845
 10
477.9546766249
 20
-151.0163716498
 10
476.8454074598
 20
-146.9225578317
 10
475.4974486619
 20
-143.0498719544
 10
473.9154469245
 20
-139.4116639683
 10
472.1048557353
 20
-136.0204755302
 10
470.0719165771
 20
-132.8879967691
 10
467.8236374125
 20
-130.0250259882
 10
465.3677685254
 20
-127.4414324409
 10
462.7127758047
 20
-125.1461223094
 10
459.8678115602
 20
-123.1470080032
 10
456.8426829732
 20
-121.4509808834
 10
453.6478182885
 20
-120.0638875069
 10
450.2942308665
 20
-118.9905094719
 10
446.7934812179
 20
-118.2345469349
 10
443.1576371519
 20
-117.7986058553
 10
439.3992321761
 20
-117.6841890123
 10
435.5312222912
 20
-117.8916908245
 10
431.5669413285
 20
-118.4203959902
 10
427.5200549858
 20
-119.2684819531
 10
423.4045137186
 20
-120.4330251852
 10
419.2345046502
 20
-121.9100112648
 10
415.0244026658
 20
-123.6943487149
 10
410.7887208591
 20
-125.7798865546
 10
406.5420605028
 20
-128.1594355029
 10
402.2990607148
 20
-130.8247927617
 10
398.0743479943
 20
-133.7667702924
 10
393.8824858015
 20
-136.9752264888
 10
389.7379243535
 20
-140.439101138
 10
385.6549508123
 20
-144.1464535463
 10
381.6476400336
 20
-148.084503702
 10
377.7298060478
 20
-152.2396763303
 10
373.9149544402
 20
-156.5976476906
 10
370.2162357946
 20
-161.1433949525
 10
366.6464003604
 20
-165.8612479838
 10
363.2177540999
 20
-170.7349433675
 10
359.9421162671
 20
-175.7476804661
 10
356.8307786641
 20
-180.8821793363
 10
353.8944667162
 20
-186.1207402968
 10
351.1433024989
 20
-191.4453049429
 10
348.5867698454
 20
-196.8375183971
 10
346.2336816531
 20
-202.2787925826
 10
344.0921495047
 20
-207.7503703
 10
342.1695557051
 20
-213.2333898875
 10
340.4725278333
 20
-218.7089502406
 10
339.006915896
 20
-224.1581759686
 10
337.7777721613
 20
-229.5622824614
 10
336.789333742
 20
-234.9026406444
 10
336.0450079904
 20
-240.1608411968
 10
335.5473607514
 20
-245.3187580117
 10
335.2981075181
 20
-250.3586106816
 10
335.2981075181
 20
-255.2630257902
 10
335.5473607514
 20
-260.0150968025
 10
336.0450079904
 20
-264.5984423454
 10
336.789333742
 20
-268.9972626773
 10
337.7777721613
 20
-273.1963941532
 10
339.006915896
 20
-277.181361497
 10
340.4725278333
 20
-280.9384277008
 10
342.1695557051
 20
-284.4546413791
 10
344.0921495047
 20
-287.7178814148
 10
346.2336816531
 20
-290.7168987436
 10
348.5867698454
 20
-293.4413551315
 10
351.1433024989
 20
-295.8818588128
 10
353.8944667162
 20
-298.0299968658
 10
356.8307786641
 20
-299.8783642136
 10
359.9421162671
 20
-301.4205891511
 10
363.2177540999
 20
-302.6513553094
 10
366.6464003604
 20
-303.5664199825
 10
370.2162357946
 20
-304.1626287531
 10
373.9149544402
 20
-304.437926366
 10
377.7298060478
 20
-304.3913638132
 10
381.6476400336
 20
-304.0231016055
 10
385.6549508123
 20
-303.3344092191
 10
389.7379243535
 20
-302.3276607193
 10
393.8824858015
 20
-301.0063265766
 10
398.0743479943
 20
-299.3749617037
 10
402.2990607148
 20
-297.4391897532
 10
406.5420605028
 20
-295.205683732
 10
410.7887208591
 20
-292.682142998
 10
415.0244026658
 20
-289.8772667191
 10
419.2345046502
 20
-286.8007238847
 10
423.4045137186
 20
-283.4631199754
 10
427.5200549858
 20
-279.8759604033
 10
431.5669413285
 20
-276.0516108504
 10
435.5312222912
 20
-272.0032546421
 10
439.3992321761
 20
-267.7448473007
 10
443.1576371519
 20
-263.2910684387
 10
446.7934812179
 20
-258.6572711543
 10
450.2942308665
 20
-253.8594291068
 10
453.6478182885
 20
-248.9140814516
 10
456.8426829732
 20
-243.8382758266
 10
459.8678115602
 20
-238.6495095853
 10
462.7127758047
 20
-233.3656694797
 10
465.3677685254
 20
-228.0049700015
 10
467.8236374125
 20
-222.5858905922
 10
470.0719165771
 20
-217.1271119411
 10
472.1048557353
 20
-211.6474515892
 10
473.9154469245
 20
-206.1657990608
 10
475.4974486619
 20
-200.7010507477
 10
476.8454074598
 20
-195.2720447696
 10
477.9546766249
 20
-189.8974960346
 10
478.8214322766
 20
-184.5959317257
 10
479.4426865287
 20
-179.3856274334
 10
479.816297789
 20
-174.2845441558
 10
479.9409781421
 20
-169.3102663839
  0
LWPOLYLINE
  5
C9
330
1F
100
AcDbEntity
  8
0
  6
Continuous
 62
     7
370
    25
100
AcDbPolyline
 90
       97
 70
   128
 43
0.0
 10
870.6174747476
 20
-251.4001020277
 10
870.4936320101
 20
-246.9601354141
 10
870.1226341109
 20
-242.3961956379
 10
869.5060697203
 20
-237.7278261899
 10
868.6465790614
 20
-232.9750177448
 10
867.5478426052
 20
-228.158122558
 10
866.21456531
 20
-223.2977673142
 10
864.6524564738
 20
-218.4147648007
 10
862.8682052865
 20
-213.530024784
 10
860.8694521855
 20
-208.6644644706
 10
858.6647561386
 20
-203.8389189369
 10
856.2635579926
 20
-199.0740519097
 10
853.6761400466
 20
-194.390267281
 10
850.9135820215
 20
-189.8076217358
 10
847.987713615
 20
-185.3457388658
 10
844.9110638446
 20
-181.0237251384
 10
841.6968073971
 20
-176.8600880799
 10
838.358708212
 20
-172.8726570235
 10
834.9110605426
 20
-169.0785067611
 10
831.3686277453
 20
-165.4938844266
 10
827.7465790614
 20
-162.1341399232
 10
824.0604246593
 20
-159.0136601925
 10
820.325949218
 20
-156.145807608
 10
816.5591443349
 20
-153.5428627546
 10
812.7761400466
 20
-151.2159718418
 10
808.9931357583
 20
-149.1750989738
 10
805.2263308751
 20
-147.4289834815
 10
801.4918554339
 20
-145.9851024994
 10
797.8057010318
 20
-144.8496389476
 10
794.1836523479
 20
-144.0274550554
 10
790.6412195506
 20
-143.5220715405
 10
787.1935718811
 20
-143.3356525325
 10
783.8554726961
 20
-143.4689963064
 10
780.6412162485
 20
-143.9215318635
 10
777.5645664782
 20
-144.6913213773
 10
774.6386980716
 20
-145.7750684908
 10
771.8761400466
 20
-147.1681324324
 10
769.2887221006
 20
-148.8645478886
 10
766.8875239546
 20
-150.8570505479
 10
764.6828279076
 20
-153.137108208
 10
762.6840748067
 20
-155.694957312
 10
760.8998236193
 20
-158.5196447573
 10
759.3377147831
 20
-161.5990747986
 10
758.0044374879
 20
-164.9200608438
 10
756.9057010318
 20
-168.4683819207
 10
756.0462103729
 20
-172.2288435737
 10
755.4296459822
 20
-176.1853429288
 10
755.0586480831
 20
-180.3209376482
 10
754.9348053455
 20
-184.6179184806
 10
755.0586480831
 20
-189.0578850941
 10
755.4296459822
 20
-193.6218248703
 10
756.0462103729
 20
-198.2901943183
 10
756.9057010318
 20
-203.0430027634
 10
758.0044374879
 20
-207.8598979502
 10
759.3377147831
 20
-212.720253194
 10
760.8998236193
 20
-217.6032557075
 10
762.6840748067
 20
-222.4879957242
 10
764.6828279076
 20
-227.3535560376
 10
766.8875239546
 20
-232.1791015713
 10
769.2887221006
 20
-236.9439685985
 10
771.8761400466
 20
-241.6277532272
 10
774.6386980716
 20
-246.2103987724
 10
777.5645664782
 20
-250.6722816424
 10
780.6412162485
 20
-254.9942953698
 10
783.8554726961
 20
-259.1579324283
 10
787.1935718811
 20
-263.1453634847
 10
790.6412195506
 20
-266.9395137471
 10
794.1836523479
 20
-270.5241360816
 10
797.8057010318
 20
-273.8838805851
 10
801.4918554339
 20
-277.0043603157
 10
805.2263308751
 20
-279.8722129002
 10
808.9931357583
 20
-282.4751577536
 10
812.7761400466
 20
-284.8020486664
 10
816.5591443349
 20
-286.8429215344
 10
820.325949218
 20
-288.5890370267
 10
824.0604246593
 20
-290.0329180088
 10
827.7465790614
 20
-291.1683815606
 10
831.3686277453
 20
-291.9905654528
 10
834.9110605426
 20
-292.4959489677
 10
838.358708212
 20
-292.6823679757
 10
841.6968073971
 20
-292.5490242018
 10
844.9110638446
 20
-292.0964886447
 10
847.987713615
 20
-291.3266991309
 10
850.9135820215
 20
-290.2429520174
 10
853.6761400466
 20
-288.8498880758
 10
856.2635579926
 20
-287.1534726196
 10
858.6647561386
 20
-285.1609699603
 10
860.8694521855
 20
-282.8809123002
 10
862.8682052865
 20
-280.3230631962
 10
864.6524564738
 20
-277.4983757509
 10
866.21456531
 20
-274.4189457096
 10
867.5478426052
 20
-271.0979596644
 10
868.6465790614
 20
-267.5496385875
 10
869.5060697203
 20
-263.7891769345
 10
870.1226341109
 20
-259.8326775794
 10
870.4936320101
 20
-255.69708286
 10
870.6174747476
 20
-251.4001020277
  0
LWPOLYLINE
  5
CA
330
1F
100
AcDbEntity
  8
0
  6
Continuous
 62
     7
370
    25
100
AcDbPolyline
 90
      107
 70
   128
 43
0.0
 10
883.4868181652
 20
-258.8294158452
 10
883.3626312473
 20
-253.9204852238
 10
882.9905067047
 20
-248.8854142369
 10
882.3717516384
 20
-243.7418887548
 10
881.5085394481
 20
-238.5079755985
 10
880.4039021981
 20
-233.2020590788
 10
879.0617199671
 20
-227.8427764209
 10
877.4867072192
 20
-222.4489523008
 10
875.6843962439
 20
-217.0395327223
 10
873.6611177244
 20
-211.633518469
 10
871.4239785002
 20
-206.2498983631
 10
868.9808366045
 20
-200.9075825666
 10
866.3402736623
 20
-195.6253361586
 10
863.5115647472
 20
-190.4217132221
 10
860.5046458025
 20
-185.3149916727
 10
857.3300787406
 20
-180.3231090559
 10
853.999014344
 20
-175.4635995415
 10
850.5231530981
 20
-170.753532334
 10
846.9147040921
 20
-166.2094517161
 10
843.1863421348
 20
-161.8473189368
 10
839.3511632336
 20
-157.6824561465
 10
835.4226385942
 20
-153.7294925777
 10
831.4145673027
 20
-150.0023131591
 10
827.3410278557
 20
-146.5140097444
 10
823.2163287091
 20
-143.2768351265
 10
819.054958019
 20
-140.3021599992
 10
814.8715327518
 20
-137.6004330176
 10
810.6807473413
 20
-135.1811440962
 10
806.4973220741
 20
-133.0527910754
 10
802.3359513841
 20
-131.222849873
 10
798.2112522375
 20
-129.6977482242
 10
794.1377127905
 20
-128.482843104
 10
790.129641499
 20
-127.5824019111
 10
786.2011168596
 20
-126.999587478
 10
782.3659379584
 20
-126.7364469617
 10
778.6375760011
 20
-126.7939046527
 10
775.0291269951
 20
-127.1717587289
 10
771.5532657491
 20
-127.868681964
 10
768.2222013526
 20
-128.8822263898
 10
765.0476342907
 20
-130.2088318945
 10
762.0407153459
 20
-131.8438387279
 10
759.2120064308
 20
-133.7815038688
 10
756.5714434886
 20
-136.0150211978
 10
754.1283015929
 20
-138.5365454038
 10
751.8911623688
 20
-141.337219541
 10
749.8678838493
 20
-144.4072061394
 10
748.065572874
 20
-147.7357217592
 10
746.490560126
 20
-151.3110748678
 10
745.148377895
 20
-155.1207069069
 10
744.0437406451
 20
-159.1512364052
 10
743.1805284548
 20
-163.3885059808
 10
742.5617733885
 20
-167.8176320697
 10
742.1896488458
 20
-172.423057205
 10
742.0654619279
 20
-177.188604663
 10
742.1896488458
 20
-182.0975352844
 10
742.5617733885
 20
-187.1326062713
 10
743.1805284548
 20
-192.2761317534
 10
744.0437406451
 20
-197.5100449097
 10
745.148377895
 20
-202.8159614294
 10
746.490560126
 20
-208.1752440873
 10
748.065572874
 20
-213.5690682074
 10
749.8678838493
 20
-218.9784877859
 10
751.8911623688
 20
-224.3845020392
 10
754.1283015929
 20
-229.7681221451
 10
756.5714434886
 20
-235.1104379416
 10
759.2120064308
 20
-240.3926843496
 10
762.0407153459
 20
-245.5963072861
 10
765.0476342907
 20
-250.7030288355
 10
768.2222013526
 20
-255.6949114523
 10
771.5532657491
 20
-260.5544209667
 10
775.0291269951
 20
-265.2644881742
 10
778.6375760011
 20
-269.8085687921
 10
782.3659379584
 20
-274.1707015714
 10
786.2011168596
 20
-278.3355643617
 10
790.129641499
 20
-282.2885279305
 10
794.1377127905
 20
-286.0157073491
 10
798.2112522375
 20
-289.5040107638
 10
802.3359513841
 20
-292.7411853818
 10
806.4973220741
 20
-295.715860509
 10
810.6807473413
 20
-298.4175874906
 10
814.8715327518
 20
-300.836876412
 10
819.054958019
 20
-302.9652294328
 10
823.2163287091
 20
-304.7951706352
 10
827.3410278557
 20
-306.320272284
 10
831.4145673027
 20
-307.5351774042
 10
835.4226385942
 20
-308.4356185971
 10
839.3511632336
 20
-309.0184330302
 10
843.1863421348
 20
-309.2815735466
 10
846.9147040921
 20
-309.2241158555
 10
850.5231530981
 20
-308.8462617793
 10
853.999014344
 20
-308.1493385442
 10
857.3300787406
 20
-307.1357941184
 10
860.5046458025
 20
-305.8091886137
 10
863.5115647472
 20
-304.1741817803
 10
866.3402736623
 20
-302.2365166394
 10
868.9808366045
 20
-300.0029993104
 10
871.4239785002
 20
-297.4814751044
 10
873.6611177244
 20
-294.6808009672
 10
875.6843962439
 20
-291.6108143688
 10
877.4867072192
 20
-288.282298749
 10
879.0617199671
 20
-284.7069456405
 10
880.4039021981
 20
-280.8973136013
 10
881.5085394481
 20
-276.866784103
 10
882.3717516384
 20
-272.6295145274
 10
882.9905067047
 20
-268.2003884385
 10
883.3626312473
 20
-263.5949633032
 10
883.4868181652
 20
-258.8294158452
  0
ENDSEC
  0
SECTION
  2
OBJECTS
  0
DICTIONARY
  5
C
330
0
100
AcDbDictionary
281
     1
  3
ACAD_GROUP
350
D
  3
ACAD_LAYOUT
350
1A
  3
ACAD_MLINESTYLE
350
17
  3
ACAD_PLOTSETTINGS
350
19
  3
ACAD_PLOTSTYLENAME
350
E
  3
ACAD_SCALELIST
350
47
  0
DICTIONARY
  5
D
102
{ACAD_REACTORS
330
C
102
}
330
C
100
AcDbDictionary
281
     1
  0
DICTIONARY
  5
1A
102
{ACAD_REACTORS
330
C
102
}
330
C
100
AcDbDictionary
281
     1
  3
Layout1
350
1E
  3
Layout2
350
26
  3
Model
350
22
  0
DICTIONARY
  5
17
102
{ACAD_REACTORS
330
C
102
}
330
C
100
AcDbDictionary
281
     1
  3
Standard
350
18
  0
DICTIONARY
  5
19
102
{ACAD_REACTORS
330
C
102
}
330
C
100
AcDbDictionary
281
     1
  0
ACDBDICTIONARYWDFLT
  5
E
102
{ACAD_REACTORS
330
C
102
}
330
C
100
AcDbDictionary
281
     1
  3
Normal
350
F
100
AcDbDictionaryWithDefault
340
F
  0
DICTIONARY
  5
47
102
{ACAD_REACTORS
330
C
102
}
330
C
100
AcDbDictionary
281
     1
  3
A0
350
48
  3
A1
350
49
  3
A2
350
4A
  3
A3
350
4B
  3
A4
350
4C
  3
A5
350
4D
  3
A6
350
4E
  3
A7
350
4F
  3
A8
350
50
  3
A9
350
51
  3
B0
350
52
  3
B1
350
53
  3
B2
350
54
  3
B3
350
55
  3
B4
350
56
  3
B5
350
57
  3
B6
350
58
  3
B7
350
59
  3
B8
350
5A
  3
B9
350
5B
  3
C0
350
5C
  3
C1
350
5D
  3
C2
350
5E
  3
C3
350
5F
  3
C4
350
60
  3
C5
350
61
  3
C6
350
62
  3
C7
350
63
  3
C8
350
64
  3
C9
350
65
  3
D0
350
66
  3
D1
350
67
  3
D2
350
68
  0
LAYOUT
  5
1E
102
{ACAD_REACTORS
330
1A
102
}
330
1A
100
AcDbPlotSettings
  1

  2
none_device
  4

  6

 40
0.0
 41
0.0
 42
0.0
 43
0.0
 44
0.0
 45
0.0
 46
0.0
 47
0.0
 48
0.0
 49
0.0
140
0.0
141
0.0
142
1.0
143
1.0
 70
   688
 72
     1
 73
     0
 74
     5
  7

 75
    16
147
1.0
148
0.0
149
0.0
100
AcDbLayout
  1
Layout1
 70
     1
 71
     1
 10
0.0
 20
0.0
 11
420.0
 21
297.0
 12
0.0
 22
0.0
 32
0.0
 14
1.0000000000E+20
 24
1.0000000000E+20
 34
1.0000000000E+20
 15
-1.0000000000E+20
 25
-1.0000000000E+20
 35
-1.0000000000E+20
146
0.0
 13
0.0
 23
0.0
 33
0.0
 16
1.0
 26
0.0
 36
0.0
 17
0.0
 27
1.0
 37
0.0
 76
     0
330
1B
  0
LAYOUT
  5
26
102
{ACAD_REACTORS
330
1A
102
}
330
1A
100
AcDbPlotSettings
  1

  2
none_device
  4

  6

 40
0.0
 41
0.0
 42
0.0
 43
0.0
 44
0.0
 45
0.0
 46
0.0
 47
0.0
 48
0.0
 49
0.0
140
0.0
141
0.0
142
1.0
143
1.0
 70
   688
 72
     1
 73
     0
 74
     5
  7

 75
    16
147
1.0
148
0.0
149
0.0
100
AcDbLayout
  1
Layout2
 70
     1
 71
     2
 10
0.0
 20
0.0
 11
0.0
 21
0.0
 12
0.0
 22
0.0
 32
0.0
 14
0.0
 24
0.0
 34
0.0
 15
0.0
 25
0.0
 35
0.0
146
0.0
 13
0.0
 23
0.0
 33
0.0
 16
1.0
 26
0.0
 36
0.0
 17
0.0
 27
1.0
 37
0.0
 76
     0
330
23
  0
LAYOUT
  5
22
102
{ACAD_REACTORS
330
1A
102
}
330
1A
100
AcDbPlotSettings
  1

  2
none_device
  4
Letter_(8.50_x_11.00_Inches)
  6

 40
6.35
 41
6.35
 42
6.35000508
 43
6.35000508
 44
215.9
 45
279.4
 46
0.0
 47
0.0
 48
0.0
 49
0.0
140
0.0
141
0.0
142
1.0
143
1.0
 70
  1712
 72
     1
 73
     0
 74
     0
  7

 75
     0
147
1.0
148
0.0
149
0.0
100
AcDbLayout
  1
Model
 70
     1
 71
     0
 10
0.0
 20
0.0
 11
279.4
 21
215.9
 12
0.0
 22
0.0
 32
0.0
 14
0.0
 24
0.0
 34
0.0
 15
279.4
 25
215.9
 35
0.0
146
0.0
 13
0.0
 23
0.0
 33
0.0
 16
1.0
 26
0.0
 36
0.0
 17
0.0
 27
1.0
 37
0.0
 76
     0
330
1F
331
29
  0
MLINESTYLE
  5
18
102
{ACAD_REACTORS
330
17
102
}
330
17
100
AcDbMlineStyle
  2
Standard
 70
     0
  3

 62
   256
 51
90.0
 52
90.0
 71
     2
 49
0.5
 62
   256
  6
BYLAYER
 49
-0.5
 62
   256
  6
BYLAYER
  0
ACDBPLACEHOLDER
  5
F
102
{ACAD_REACTORS
330
E
102
}
330
E
  0
SCALE
  5
48
102
{ACAD_REACTORS
330
47
102
}
330
47
100
AcDbScale
 70
     0
300
1:1
140
1.0
141
1.0
290
     1
  0
SCALE
  5
49
102
{ACAD_REACTORS
330
47
102
}
330
47
100
AcDbScale
 70
     0
300
1:2
140
1.0
141
2.0
290
     0
  0
SCALE
  5
4A
102
{ACAD_REACTORS
330
47
102
}
330
47
100
AcDbScale
 70
     0
300
1:4
140
1.0
141
4.0
290
     0
  0
SCALE
  5
4B
102
{ACAD_REACTORS
330
47
102
}
330
47
100
AcDbScale
 70
     0
300
1:5
140
1.0
141
5.0
290
     0
  0
SCALE
  5
4C
102
{ACAD_REACTORS
330
47
102
}
330
47
100
AcDbScale
 70
     0
300
1:8
140
1.0
141
8.0
290
     0
  0
SCALE
  5
4D
102
{ACAD_REACTORS
330
47
102
}
330
47
100
AcDbScale
 70
     0
300
1:10
140
1.0
141
10.0
290
     0
  0
SCALE
  5
4E
102
{ACAD_REACTORS
330
47
102
}
330
47
100
AcDbScale
 70
     0
300
1:16
140
1.0
141
16.0
290
     0
  0
SCALE
  5
4F
102
{ACAD_REACTORS
330
47
102
}
330
47
100
AcDbScale
 70
     0
300
1:20
140
1.0
141
20.0
290
     0
  0
SCALE
  5
50
102
{ACAD_REACTORS
330
47
102
}
330
47
100
AcDbScale
 70
     0
300
1:30
140
1.0
141
30.0
290
     0
  0
SCALE
  5
51
102
{ACAD_REACTORS
330
47
102
}
330
47
100
AcDbScale
 70
     0
300
1:40
140
1.0
141
40.0
290
     0
  0
SCALE
  5
52
102
{ACAD_REACTORS
330
47
102
}
330
47
100
AcDbScale
 70
     0
300
1:50
140
1.0
141
50.0
290
     0
  0
SCALE
  5
53
102
{ACAD_REACTORS
330
47
102
}
330
47
100
AcDbScale
 70
     0
300
1:100
140
1.0
141
100.0
290
     0
  0
SCALE
  5
54
102
{ACAD_REACTORS
330
47
102
}
330
47
100
AcDbScale
 70
     0
300
2:1
140
2.0
141
1.0
290
     0
  0
SCALE
  5
55
102
{ACAD_REACTORS
330
47
102
}
330
47
100
AcDbScale
 70
     0
300
4:1
140
4.0
141
1.0
290
     0
  0
SCALE
  5
56
102
{ACAD_REACTORS
330
47
102
}
330
47
100
AcDbScale
 70
     0
300
8:1
140
8.0
141
1.0
290
     0
  0
SCALE
  5
57
102
{ACAD_REACTORS
330
47
102
}
330
47
100
AcDbScale
 70
     0
300
10:1
140
10.0
141
1.0
290
     0
  0
SCALE
  5
58
102
{ACAD_REACTORS
330
47
102
}
330
47
100
AcDbScale
 70
     0
300
100:1
140
100.0
141
1.0
290
     0
  0
SCALE
  5
59
102
{ACAD_REACTORS
330
47
102
}
330
47
100
AcDbScale
 70
     0
300
1/128" = 1'-0"
140
0.0078125
141
12.0
290
     0
  0
SCALE
  5
5A
102
{ACAD_REACTORS
330
47
102
}
330
47
100
AcDbScale
 70
     0
300
1/64" = 1'-0"
140
0.015625
141
12.0
290
     0
  0
SCALE
  5
5B
102
{ACAD_REACTORS
330
47
102
}
330
47
100
AcDbScale
 70
     0
300
1/32" = 1'-0"
140
0.03125
141
12.0
290
     0
  0
SCALE
  5
5C
102
{ACAD_REACTORS
330
47
102
}
330
47
100
AcDbScale
 70
     0
300
1/16" = 1'-0"
140
0.0625
141
12.0
290
     0
  0
SCALE
  5
5D
102
{ACAD_REACTORS
330
47
102
}
330
47
100
AcDbScale
 70
     0
300
3/32" = 1'-0"
140
0.09375
141
12.0
290
     0
  0
SCALE
  5
5E
102
{ACAD_REACTORS
330
47
102
}
330
47
100
AcDbScale
 70
     0
300
1/8" = 1'-0"
140
0.125
141
12.0
290
     0
  0
SCALE
  5
5F
102
{ACAD_REACTORS
330
47
102
}
330
47
100
AcDbScale
 70
     0
300
3/16" = 1'-0"
140
0.1875
141
12.0
290
     0
  0
SCALE
  5
60
102
{ACAD_REACTORS
330
47
102
}
330
47
100
AcDbScale
 70
     0
300
1/4" = 1'-0"
140
0.25
141
12.0
290
     0
  0
SCALE
  5
61
102
{ACAD_REACTORS
330
47
102
}
330
47
100
AcDbScale
 70
     0
300
3/8" = 1'-0"
140
0.375
141
12.0
290
     0
  0
SCALE
  5
62
102
{ACAD_REACTORS
330
47
102
}
330
47
100
AcDbScale
 70
     0
300
1/2" = 1'-0"
140
0.5
141
12.0
290
     0
  0
SCALE
  5
63
102
{ACAD_REACTORS
330
47
102
}
330
47
100
AcDbScale
 70
     0
300
3/4" = 1'-0"
140
0.75
141
12.0
290
     0
  0
SCALE
  5
64
102
{ACAD_REACTORS
330
47
102
}
330
47
100
AcDbScale
 70
     0
300
1" = 1'-0"
140
1.0
141
12.0
290
     0
  0
SCALE
  5
65
102
{ACAD_REACTORS
330
47
102
}
330
47
100
AcDbScale
 70
     0
300
1-1/2" = 1'-0"
140
1.5
141
12.0
290
     0
  0
SCALE
  5
66
102
{ACAD_REACTORS
330
47
102
}
330
47
100
AcDbScale
 70
     0
300
3" = 1'-0"
140
3.0
141
12.0
290
     0
  0
SCALE
  5
67
102
{ACAD_REACTORS
330
47
102
}
330
47
100
AcDbScale
 70
     0
300
6" = 1'-0"
140
6.0
141
12.0
290
     0
  0
SCALE
  5
68
102
{ACAD_REACTORS
330
47
102
}
330
47
100
AcDbScale
 70
     0
300
1'-0" = 1'-0"
140
12.0
141
12.0
290
     0
  0
ENDSEC
  0
EOF
